Guitars101 - Guitar Forums banner
1 - 5 of 5 Posts

·
Airborne Warrior
Joined
·
699 Posts
Discussion Starter · #1 ·
Harmonic minor and its Diatonic Modes
(in key of A)

A Harmonic Minor A, B, C, D, E, F, G#

e----4---5---7---
b----5---6--------
g----4---5---7---
d----6---7--------
a----5---7---8---
E----5---7---8---

A Locrian natural 6th A, Bb, C, D, Eb, F#, G

e----5---6---8--------
b----7---8-------------
g----5---7---8--------
d----4---5---7---8---
a----5---6-------------
E----5---6---8--------

A Major #5 A, B, C#, D, E#, F#, G#

e----4---5---7-------
b----6---7------------
g----4---6---7--------
d----3---4---6---7---
a----4---5-------------
E----5---7-------------

A Dorian #4 A, B, C, D#, E, F#, G

e----5---7---8----------
b----4---5---7---8------
g----4---5----------------
d----4---5---7-----------
a----6---7----------------
E----5---7---8-----------

A Phrygian major 3rd A, Bb, C#, D, E, F, G

e----5---6-----------------
b----5---6---8-------------
g----6---7------------------
d----5---7---8--------------
a----4---5---7---8---------
E----5---6------------------

A Lydian #2 A, B#, C#, D#, E, F#, G#

e----4---5------------------
b----4---5---7-------------
g----5---6------------------
d----4---6---7--------------
a----3---4---6---7---------
E----4---5------------------

A Super Locrian Diminished A, Bb, C, Db, Eb, F, Gbb

e----5---6---8-------------
b----6---7------------------
g----5---6---8-------------
d----7---8------------------
a----6---8---9-------------
E----5---6---8---9--------

A Melodic Minor and its Diatonic Modes

A Melodic Minor A, B, C, D, E, F#, G#

e----4---5---7-------------
b----5---7------------------
g----4---5---7--------------
d----4---6---7--------------
a----5---7-------------------
E----5---7---8--------------

A Dorian b2 A, Bb, C, D, E, F#, G

e----5---6---8---------
b----5---7---8---------
g----5---7--------------
d----4---5---7---8----
a----5---7--------------
E----5---6---8---------

A Lydian #5 A, B, C#, D#, E#, F#, G#

e----4---5---7---------
b----4---6---8---------
g----4---6--------------
d----3---4---6---8-----
a----4---6---------------
E----4---6---8----------

A Lydian b7 A, B, C#, D#, E, F#, G

e----5---7----------------
b----4---5---7---8-------
g----4---6-----------------
d----4---5---7------------
a----4---6---7------------
E----5---7-----------------

A Mixolydian b6 A, B, C#, D, E, F, G

e----5---7------------------
b----5---6---8-------------
g----4---6---7-------------
d----5---7------------------
a----4---5---7---8---------
E----5---7------------------

A Aeolian b5 A, B, C, D, Eb, F, G

e----5---7---8------------
b----6---8-----------------
g----4---5---7---8--------
d----5---7------------------
a----5---6---8-------------
E----5---7---8-------------

A Super Locrain A, Bb, C, Db, Eb, F, G

e----5---6---8--------------
b----6---8-------------------
g----5---6---8--------------
d----5---7---8--------------
a----6---8-------------------
E----5---6---8---9---------

I hope you find this useful as it took me ages to type it out lol
cheers
 
1 - 5 of 5 Posts
This is an older thread, you may not receive a response, and could be reviving an old thread. Please consider creating a new thread.
Top