Guitars101 - Guitar Forums banner

1 - 5 of 5 Posts

·
Registered
Joined
·
2 Posts
Discussion Starter #1
here
NOTE FOR GUITAR PRO 5.2 (use eighth note)

e--14-------17----15-14----14-------17----15---14----12-------15-----14
B--------15----15-----------------15----15------------------13------13-
G-----16----16----16----16----16----16------16----16----14------14-
D
A
E

e---------17-----15-----14-----14--------17--------15-----14-----14----
B-----13------13----------------------15--------15----------------------
G-14-------14-------14-----14-----16--------16--------16-----16-----16-
D
A
E

e-14--------17-------15-------19-------17----15----14-------15----12-
B--------15-------15-------15-------18--------------------15----------
G----18--------16-------18-------16-------16----16----16-------16----
D
A
E

e---------2---4---5-4-2-9-7-5-4---------2---4----5-4-2-9-7-5-4-
B-----0-3---3---3--------------------0-3---3---3----------------
G---4------------------------------------------------------------
D-2--------------------------------4-----------------------------
A--------------------------------2-------------------------------
E----------------------------------------------------------------

e-2-----5-----3---2---2------5-----3---2---0-----3
B-----3-----3--------------3------3-------------1-
G---4-----4-----4---4---4------4-----4---4---2---
D
A
E

try it on guitar pro 5.2 1st OK
 
R

·
Guest
Joined
·
0 Posts
Well, I'm not going to play it right now, but if I did, I would do it Hybrid style. ;)
 
1 - 5 of 5 Posts
Top